ISO-10303-21;
HEADER;
FILE_DESCRIPTION (( 'STEP AP203' ),
    '1' );
FILE_NAME ('250814 STEP 3-400575-01_5502.STEP',
    '2025-08-14T09:41:21',
    ( '' ),
    ( '' ),
    'SwSTEP 2.0',
    'SolidWorks 2024',
    '' );
FILE_SCHEMA (( 'CONFIG_CONTROL_DESIGN' ));
ENDSEC;

DATA;
#1 = AXIS2_PLACEMENT_3D ( 'NONE', #165, #219, #248 ) ;
#2 = FACE_OUTER_BOUND ( 'NONE', #261, .T. ) ;
#3 = DIRECTION ( 'NONE',  ( 1.000000000000000000, 0.000000000000000000, 0.000000000000000000 ) ) ;
#4 = DIRECTION ( 'NONE',  ( -0.000000000000000000, -0.000000000000000000, 1.000000000000000000 ) ) ;
#5 = EDGE_CURVE ( 'NONE', #61, #61, #306, .T. ) ;
#6 = DIRECTION ( 'NONE',  ( 1.000000000000000000, 0.000000000000000000, 0.000000000000000000 ) ) ;
#7 = AXIS2_PLACEMENT_3D ( 'NONE', #73, #175, #46 ) ;
#8 = VERTEX_POINT ( 'NONE', #188 ) ;
#9 = ORIENTED_EDGE ( 'NONE', *, *, #199, .T. ) ;
#10 = FACE_OUTER_BOUND ( 'NONE', #113, .T. ) ;
#11 = DIRECTION ( 'NONE',  ( 0.000000000000000000, 0.000000000000000000, 1.000000000000000000 ) ) ;
#12 = CALENDAR_DATE ( 2025, 14, 8 ) ;
#13 = LOCAL_TIME ( 12, 41, 21.00000000000000000, #267 ) ;
#14 = CARTESIAN_POINT ( 'NONE',  ( 16.29910891108343662, 0.000000000000000000, 2.039192520832458388 ) ) ;
#15 = EDGE_LOOP ( 'NONE', ( #158 ) ) ;
#16 = EDGE_LOOP ( 'NONE', ( #288 ) ) ;
#17 = FACE_OUTER_BOUND ( 'NONE', #54, .T. ) ;
#18 = EDGE_CURVE ( 'NONE', #63, #63, #191, .T. ) ;
#19 = ORIENTED_EDGE ( 'NONE', *, *, #5, .T. ) ;
#20 = DIRECTION ( 'NONE',  ( 1.000000000000000000, 0.000000000000000000, 0.000000000000000000 ) ) ;
#21 = ADVANCED_FACE ( 'NONE', ( #68, #240 ), #117, .F. ) ;
#22 = FACE_OUTER_BOUND ( 'NONE', #207, .T. ) ;
#23 = AXIS2_PLACEMENT_3D ( 'NONE', #262, #85, #6 ) ;
#24 = CARTESIAN_POINT ( 'NONE',  ( 0.000000000000000000, 0.000000000000000000, -4.930715522979356003 ) ) ;
#25 = DIRECTION ( 'NONE',  ( 1.000000000000000000, 0.000000000000000000, 0.000000000000000000 ) ) ;
#26 = DIRECTION ( 'NONE',  ( 1.000000000000000000, 0.000000000000000000, 0.000000000000000000 ) ) ;
#27 = PERSON_AND_ORGANIZATION ( #74, #252 ) ;
#28 = CONICAL_SURFACE ( 'NONE', #104, 16.29910891108342241, 1.134464013796312898 ) ;
#29 = EDGE_LOOP ( 'NONE', ( #143 ) ) ;
#30 = FACE_OUTER_BOUND ( 'NONE', #161, .T. ) ;
#31 = EDGE_LOOP ( 'NONE', ( #106 ) ) ;
#32 = VERTEX_POINT ( 'NONE', #287 ) ;
#33 = DATE_AND_TIME ( #181, #283 ) ;
#34 = APPLICATION_PROTOCOL_DEFINITION ( 'international standard', 'config_control_design', 1994, #216 ) ;
#35 = ORIENTED_EDGE ( 'NONE', *, *, #55, .T. ) ;
#36 = AXIS2_PLACEMENT_3D ( 'NONE', #200, #152, #25 ) ;
#37 = ORIENTED_EDGE ( 'NONE', *, *, #44, .T. ) ;
#38 = DIRECTION ( 'NONE',  ( 1.000000000000000000, 0.000000000000000000, 0.000000000000000000 ) ) ;
#39 = AXIS2_PLACEMENT_3D ( 'NONE', #170, #303, #238 ) ;
#40 = CARTESIAN_POINT ( 'NONE',  ( 0.000000000000000000, 0.000000000000000000, -3.903127820947815962E-15 ) ) ;
#41 = PERSON_AND_ORGANIZATION ( #74, #252 ) ;
#42 = ORIENTED_EDGE ( 'NONE', *, *, #55, .F. ) ;
#43 = CIRCLE ( 'NONE', #163, 22.50000000000000000 ) ;
#44 = EDGE_CURVE ( 'NONE', #8, #8, #56, .T. ) ;
#45 = CARTESIAN_POINT ( 'NONE',  ( 0.000000000000000000, 0.000000000000000000, 6.500000000000000000 ) ) ;
#46 = DIRECTION ( 'NONE',  ( -1.000000000000000000, 0.000000000000000000, -0.000000000000000000 ) ) ;
#47 = PLANE ( 'NONE',  #301 ) ;
#48 = ADVANCED_FACE ( 'NONE', ( #17, #195 ), #94, .F. ) ;
#49 = CIRCLE ( 'NONE', #124, 22.50000000000000000 ) ;
#50 = DIRECTION ( 'NONE',  ( 1.000000000000000000, 0.000000000000000000, 0.000000000000000000 ) ) ;
#51 = CARTESIAN_POINT ( 'NONE',  ( 0.000000000000000000, 0.000000000000000000, 6.500000000000000000 ) ) ;
#52 = VERTEX_POINT ( 'NONE', #289 ) ;
#53 = PERSON_AND_ORGANIZATION ( #74, #252 ) ;
#54 = EDGE_LOOP ( 'NONE', ( #245 ) ) ;
#55 = EDGE_CURVE ( 'NONE', #58, #58, #228, .T. ) ;
#56 = CIRCLE ( 'NONE', #127, 16.29910891108342241 ) ;
#57 = EDGE_LOOP ( 'NONE', ( #190 ) ) ;
#58 = VERTEX_POINT ( 'NONE', #266 ) ;
#59 = COORDINATED_UNIVERSAL_TIME_OFFSET ( 2, 0, .AHEAD. ) ;
#60 = ORIENTED_EDGE ( 'NONE', *, *, #199, .F. ) ;
#61 = VERTEX_POINT ( 'NONE', #160 ) ;
#62 = PERSON_AND_ORGANIZATION ( #74, #252 ) ;
#63 = VERTEX_POINT ( 'NONE', #14 ) ;
#64 = FACE_OUTER_BOUND ( 'NONE', #321, .T. ) ;
#65 = EDGE_CURVE ( 'NONE', #154, #154, #77, .T. ) ;
#66 = AXIS2_PLACEMENT_3D ( 'NONE', #316, #129, #189 ) ;
#67 = ORIENTED_EDGE ( 'NONE', *, *, #220, .T. ) ;
#68 = FACE_OUTER_BOUND ( 'NONE', #300, .T. ) ;
#69 = EDGE_CURVE ( 'NONE', #179, #179, #239, .T. ) ;
#70 = CARTESIAN_POINT ( 'NONE',  ( 0.000000000000000000, 0.000000000000000000, -4.930715522979356003 ) ) ;
#71 = AXIS2_PLACEMENT_3D ( 'NONE', #307, #145, #20 ) ;
#72 = SECURITY_CLASSIFICATION ( '', '', #132 ) ;
#73 = CARTESIAN_POINT ( 'NONE',  ( 0.000000000000000000, 11.00000000000000000, 6.500000000000000000 ) ) ;
#74 = PERSON ( 'UNSPECIFIED', 'UNSPECIFIED', 'UNSPECIFIED', ('UNSPECIFIED'), ('UNSPECIFIED'), ('UNSPECIFIED') ) ;
#75 = DIRECTION ( 'NONE',  ( 1.000000000000000000, 0.000000000000000000, -0.000000000000000000 ) ) ;
#76 = DIRECTION ( 'NONE',  ( -0.000000000000000000, -0.000000000000000000, 1.000000000000000000 ) ) ;
#77 = CIRCLE ( 'NONE', #235, 6.000000000000000000 ) ;
#78 = FACE_OUTER_BOUND ( 'NONE', #57, .T. ) ;
#79 = CC_DESIGN_SECURITY_CLASSIFICATION ( #72, ( #326 ) ) ;
#80 = CARTESIAN_POINT ( 'NONE',  ( 6.000000000000000000, 0.000000000000000000, -6.499999999999998224 ) ) ;
#81 = ORIENTED_EDGE ( 'NONE', *, *, #116, .T. ) ;
#82 = PLANE ( 'NONE',  #23 ) ;
#83 = CALENDAR_DATE ( 2025, 14, 8 ) ;
#84 = AXIS2_PLACEMENT_3D ( 'NONE', #40, #140, #243 ) ;
#85 = DIRECTION ( 'NONE',  ( 0.000000000000000000, -0.000000000000000000, 1.000000000000000000 ) ) ;
#86 = PERSON_AND_ORGANIZATION ( #74, #252 ) ;
#87 = EDGE_LOOP ( 'NONE', ( #120 ) ) ;
#88 = FACE_BOUND ( 'NONE', #137, .T. ) ;
#89 =( NAMED_UNIT ( * ) SI_UNIT ( $, .STERADIAN. ) SOLID_ANGLE_UNIT ( ) );
#90 = ORIENTED_EDGE ( 'NONE', *, *, #184, .T. ) ;
#91 = DIRECTION ( 'NONE',  ( 1.000000000000000000, 0.000000000000000000, 0.000000000000000000 ) ) ;
#92 = UNCERTAINTY_MEASURE_WITH_UNIT (LENGTH_MEASURE( 1.000000000000000082E-05 ), #155, 'distance_accuracy_value', 'NONE');
#93 = EDGE_LOOP ( 'NONE', ( #180 ) ) ;
#94 = TOROIDAL_SURFACE ( 'NONE', #84, 17.25000000000001421, 2.250000000000002220 ) ;
#95 = ORIENTED_EDGE ( 'NONE', *, *, #159, .T. ) ;
#96 = APPLICATION_CONTEXT ( 'configuration controlled 3d designs of mechanical parts and assemblies' ) ;
#97 = DIRECTION ( 'NONE',  ( 1.000000000000000000, 0.000000000000000000, 0.000000000000000000 ) ) ;
#98 = DIRECTION ( 'NONE',  ( -0.000000000000000000, -0.000000000000000000, 1.000000000000000000 ) ) ;
#99 = AXIS2_PLACEMENT_3D ( 'NONE', #298, #114, #217 ) ;
#100 = CARTESIAN_POINT ( 'NONE',  ( 0.000000000000000000, 0.000000000000000000, 3.000000000000000000 ) ) ;
#101 = ADVANCED_FACE ( 'NONE', ( #323, #64 ), #230, .T. ) ;
#102 = FACE_BOUND ( 'NONE', #31, .T. ) ;
#103 = DIRECTION ( 'NONE',  ( -0.000000000000000000, -0.000000000000000000, 1.000000000000000000 ) ) ;
#104 = AXIS2_PLACEMENT_3D ( 'NONE', #311, #98, #231 ) ;
#105 = CARTESIAN_POINT ( 'NONE',  ( 6.000000000000000888, 0.000000000000000000, 3.000000000000000000 ) ) ;
#106 = ORIENTED_EDGE ( 'NONE', *, *, #44, .F. ) ;
#107 = VERTEX_POINT ( 'NONE', #157 ) ;
#108 = ORIENTED_EDGE ( 'NONE', *, *, #241, .F. ) ;
#109 = DATE_AND_TIME ( #12, #134 ) ;
#110 = AXIS2_PLACEMENT_3D ( 'NONE', #291, #11, #294 ) ;
#111 = CARTESIAN_POINT ( 'NONE',  ( 6.000000000000000000, 0.000000000000000000, -3.000000000000000000 ) ) ;
#112 = APPLICATION_PROTOCOL_DEFINITION ( 'international standard', 'config_control_design', 1994, #96 ) ;
#113 = EDGE_LOOP ( 'NONE', ( #197 ) ) ;
#114 = DIRECTION ( 'NONE',  ( -0.000000000000000000, -0.000000000000000000, -1.000000000000000000 ) ) ;
#115 =( GEOMETRIC_REPRESENTATION_CONTEXT ( 3 ) GLOBAL_UNCERTAINTY_ASSIGNED_CONTEXT ( ( #92 ) ) GLOBAL_UNIT_ASSIGNED_CONTEXT ( ( #155, #136, #89 ) ) REPRESENTATION_CONTEXT ( 'NONE', 'WORKASPACE' ) );
#116 = EDGE_CURVE ( 'NONE', #32, #32, #205, .T. ) ;
#117 = CYLINDRICAL_SURFACE ( 'NONE', #1, 3.000000000000000444 ) ;
#118 = CARTESIAN_POINT ( 'NONE',  ( 0.000000000000000000, 0.000000000000000000, 6.500000000000000000 ) ) ;
#119 = APPROVAL_STATUS ( 'not_yet_approved' ) ;
#120 = ORIENTED_EDGE ( 'NONE', *, *, #220, .F. ) ;
#121 = AXIS2_PLACEMENT_3D ( 'NONE', #70, #225, #172 ) ;
#122 = FACE_BOUND ( 'NONE', #325, .T. ) ;
#123 = FACE_BOUND ( 'NONE', #29, .T. ) ;
#124 = AXIS2_PLACEMENT_3D ( 'NONE', #24, #76, #327 ) ;
#125 = FACE_BOUND ( 'NONE', #16, .T. ) ;
#126 = DIRECTION ( 'NONE',  ( -0.000000000000000000, -0.000000000000000000, 1.000000000000000000 ) ) ;
#127 = AXIS2_PLACEMENT_3D ( 'NONE', #276, #268, #272 ) ;
#128 = CARTESIAN_POINT ( 'NONE',  ( 3.000000000000000444, 0.000000000000000000, -3.000000000000000000 ) ) ;
#129 = DIRECTION ( 'NONE',  ( 0.000000000000000000, 0.000000000000000000, 1.000000000000000000 ) ) ;
#130 = EDGE_LOOP ( 'NONE', ( #19 ) ) ;
#131 = MECHANICAL_CONTEXT ( 'NONE', #96, 'mechanical' ) ;
#132 = SECURITY_CLASSIFICATION_LEVEL ( 'unclassified' ) ;
#133 = AXIS2_PLACEMENT_3D ( 'NONE', #255, #254, #26 ) ;
#134 = LOCAL_TIME ( 12, 41, 21.00000000000000000, #59 ) ;
#135 = ORIENTED_EDGE ( 'NONE', *, *, #65, .T. ) ;
#136 =( NAMED_UNIT ( * ) PLANE_ANGLE_UNIT ( ) SI_UNIT ( $, .RADIAN. ) );
#137 = EDGE_LOOP ( 'NONE', ( #135 ) ) ;
#138 = ADVANCED_FACE ( 'NONE', ( #250, #202 ), #310, .T. ) ;
#139 = EDGE_LOOP ( 'NONE', ( #315 ) ) ;
#140 = DIRECTION ( 'NONE',  ( -0.000000000000000000, -0.000000000000000000, 1.000000000000000000 ) ) ;
#141 = COORDINATED_UNIVERSAL_TIME_OFFSET ( 2, 0, .AHEAD. ) ;
#142 = CARTESIAN_POINT ( 'NONE',  ( 0.000000000000000000, 0.000000000000000000, -6.499999999999998224 ) ) ;
#143 = ORIENTED_EDGE ( 'NONE', *, *, #116, .F. ) ;
#144 = PRODUCT ( '250814 STEP 3-400575-01_5502', '250814 STEP 3-400575-01_5502', '', ( #131 ) ) ;
#145 = DIRECTION ( 'NONE',  ( -0.000000000000000000, -0.000000000000000000, 1.000000000000000000 ) ) ;
#146 = DIRECTION ( 'NONE',  ( 0.000000000000000000, 0.000000000000000000, 1.000000000000000000 ) ) ;
#147 = APPROVAL ( #119, 'UNSPECIFIED' ) ;
#148 = DIRECTION ( 'NONE',  ( 1.000000000000000000, 0.000000000000000000, 0.000000000000000000 ) ) ;
#149 = APPROVAL_PERSON_ORGANIZATION ( #236, #275, #234 ) ;
#150 = PRODUCT_DEFINITION_SHAPE ( 'NONE', 'NONE',  #293 ) ;
#151 = DIRECTION ( 'NONE',  ( 0.000000000000000000, 0.000000000000000000, 1.000000000000000000 ) ) ;
#152 = DIRECTION ( 'NONE',  ( -0.000000000000000000, -0.000000000000000000, 1.000000000000000000 ) ) ;
#153 = COORDINATED_UNIVERSAL_TIME_OFFSET ( 2, 0, .AHEAD. ) ;
#154 = VERTEX_POINT ( 'NONE', #80 ) ;
#155 =( LENGTH_UNIT ( ) NAMED_UNIT ( * ) SI_UNIT ( .MILLI., .METRE. ) );
#156 = EDGE_LOOP ( 'NONE', ( #37 ) ) ;
#157 = CARTESIAN_POINT ( 'NONE',  ( 22.50000000000000000, 0.000000000000000000, 4.930715522979356891 ) ) ;
#158 = ORIENTED_EDGE ( 'NONE', *, *, #184, .F. ) ;
#159 = EDGE_CURVE ( 'NONE', #52, #52, #49, .T. ) ;
#160 = CARTESIAN_POINT ( 'NONE',  ( 22.50000000000000000, 0.000000000000000000, 6.500000000000000000 ) ) ;
#161 = EDGE_LOOP ( 'NONE', ( #42 ) ) ;
#162 = APPROVAL_STATUS ( 'not_yet_approved' ) ;
#163 = AXIS2_PLACEMENT_3D ( 'NONE', #305, #126, #277 ) ;
#164 = APPROVAL_PERSON_ORGANIZATION ( #214, #147, #244 ) ;
#165 = CARTESIAN_POINT ( 'NONE',  ( 0.000000000000000000, 0.000000000000000000, 3.000000000000000000 ) ) ;
#166 = DATE_TIME_ROLE ( 'classification_date' ) ;
#167 = EDGE_LOOP ( 'NONE', ( #9 ) ) ;
#168 = CONICAL_SURFACE ( 'NONE', #121, 22.50000000000000000, 1.134464013796312898 ) ;
#169 = CC_DESIGN_PERSON_AND_ORGANIZATION_ASSIGNMENT ( #53, #320, ( #293 ) ) ;
#170 = CARTESIAN_POINT ( 'NONE',  ( 0.000000000000000000, 0.000000000000000000, 2.039192520832458388 ) ) ;
#171 = DIRECTION ( 'NONE',  ( -0.000000000000000000, -0.000000000000000000, 1.000000000000000000 ) ) ;
#172 = DIRECTION ( 'NONE',  ( -1.000000000000000000, 0.000000000000000000, 0.000000000000000000 ) ) ;
#173 = CIRCLE ( 'NONE', #133, 6.000000000000000000 ) ;
#174 = ADVANCED_FACE ( 'NONE', ( #102, #2 ), #168, .T. ) ;
#175 = DIRECTION ( 'NONE',  ( 0.000000000000000000, 0.000000000000000000, -1.000000000000000000 ) ) ;
#176 = FACE_OUTER_BOUND ( 'NONE', #167, .T. ) ;
#177 = APPROVAL_PERSON_ORGANIZATION ( #27, #324, #292 ) ;
#178 = CARTESIAN_POINT ( 'NONE',  ( 0.000000000000000000, 0.000000000000000000, 3.000000000000000000 ) ) ;
#179 = VERTEX_POINT ( 'NONE', #111 ) ;
#180 = ORIENTED_EDGE ( 'NONE', *, *, #65, .F. ) ;
#181 = CALENDAR_DATE ( 2025, 14, 8 ) ;
#182 = AXIS2_PLACEMENT_3D ( 'NONE', #285, #146, #3 ) ;
#183 = PLANE ( 'NONE',  #110 ) ;
#184 = EDGE_CURVE ( 'NONE', #256, #256, #249, .T. ) ;
#185 = DATE_AND_TIME ( #83, #13 ) ;
#186 = FACE_BOUND ( 'NONE', #212, .T. ) ;
#187 = PERSON_AND_ORGANIZATION_ROLE ( 'creator' ) ;
#188 = CARTESIAN_POINT ( 'NONE',  ( 16.29910891108342241, 0.000000000000000000, -2.039192520832458388 ) ) ;
#189 = DIRECTION ( 'NONE',  ( 1.000000000000000000, 0.000000000000000000, 0.000000000000000000 ) ) ;
#190 = ORIENTED_EDGE ( 'NONE', *, *, #69, .F. ) ;
#191 = CIRCLE ( 'NONE', #39, 16.29910891108343662 ) ;
#192 = DIRECTION ( 'NONE',  ( 1.000000000000000000, 0.000000000000000000, 0.000000000000000000 ) ) ;
#193 = DIRECTION ( 'NONE',  ( -0.000000000000000000, -0.000000000000000000, 1.000000000000000000 ) ) ;
#194 = CALENDAR_DATE ( 2025, 14, 8 ) ;
#195 = FACE_OUTER_BOUND ( 'NONE', #156, .T. ) ;
#196 = CC_DESIGN_APPROVAL ( #275, ( #293 ) ) ;
#197 = ORIENTED_EDGE ( 'NONE', *, *, #69, .T. ) ;
#198 = CYLINDRICAL_SURFACE ( 'NONE', #71, 6.000000000000000000 ) ;
#199 = EDGE_CURVE ( 'NONE', #313, #313, #173, .T. ) ;
#200 = CARTESIAN_POINT ( 'NONE',  ( 0.000000000000000000, 0.000000000000000000, 6.500000000000000000 ) ) ;
#201 = DIRECTION ( 'NONE',  ( 0.000000000000000000, 0.000000000000000000, 1.000000000000000000 ) ) ;
#202 = FACE_OUTER_BOUND ( 'NONE', #271, .T. ) ;
#203 = PRODUCT_RELATED_PRODUCT_CATEGORY ( 'detail', '', ( #144 ) ) ;
#204 = FACE_OUTER_BOUND ( 'NONE', #93, .T. ) ;
#205 = CIRCLE ( 'NONE', #265, 3.000000000000000444 ) ;
#206 = LOCAL_TIME ( 12, 41, 21.00000000000000000, #141 ) ;
#207 = EDGE_LOOP ( 'NONE', ( #211 ) ) ;
#208 = ADVANCED_BREP_SHAPE_REPRESENTATION ( '250814 STEP 3-400575-01_5502', ( #246, #66 ), #115 ) ;
#209 = PERSON_AND_ORGANIZATION_ROLE ( 'design_owner' ) ;
#210 = EDGE_LOOP ( 'NONE', ( #259 ) ) ;
#211 = ORIENTED_EDGE ( 'NONE', *, *, #241, .T. ) ;
#212 = EDGE_LOOP ( 'NONE', ( #90 ) ) ;
#213 = AXIS2_PLACEMENT_3D ( 'NONE', #45, #4, #50 ) ;
#214 = PERSON_AND_ORGANIZATION ( #74, #252 ) ;
#215 = AXIS2_PLACEMENT_3D ( 'NONE', #309, #328, #97 ) ;
#216 = APPLICATION_CONTEXT ( 'configuration controlled 3d designs of mechanical parts and assemblies' ) ;
#217 = DIRECTION ( 'NONE',  ( 1.000000000000000000, 0.000000000000000000, 0.000000000000000000 ) ) ;
#218 = APPROVAL_DATE_TIME ( #242, #147 ) ;
#219 = DIRECTION ( 'NONE',  ( -0.000000000000000000, -0.000000000000000000, -1.000000000000000000 ) ) ;
#220 = EDGE_CURVE ( 'NONE', #107, #107, #43, .T. ) ;
#221 = CARTESIAN_POINT ( 'NONE',  ( 0.000000000000000000, 0.000000000000000000, -6.500000000000000000 ) ) ;
#222 = PERSON_AND_ORGANIZATION_ROLE ( 'classification_officer' ) ;
#223 = AXIS2_PLACEMENT_3D ( 'NONE', #221, #274, #38 ) ;
#224 = COORDINATED_UNIVERSAL_TIME_OFFSET ( 2, 0, .AHEAD. ) ;
#225 = DIRECTION ( 'NONE',  ( 0.000000000000000000, 0.000000000000000000, -1.000000000000000000 ) ) ;
#226 = PLANE ( 'NONE',  #7 ) ;
#227 = FACE_OUTER_BOUND ( 'NONE', #130, .T. ) ;
#228 = CIRCLE ( 'NONE', #223, 22.50000000000000000 ) ;
#229 = ADVANCED_FACE ( 'NONE', ( #251, #125 ), #28, .T. ) ;
#230 = CYLINDRICAL_SURFACE ( 'NONE', #36, 22.50000000000000000 ) ;
#231 = DIRECTION ( 'NONE',  ( 1.000000000000000000, 0.000000000000000000, 0.000000000000000000 ) ) ;
#232 = APPROVAL_DATE_TIME ( #185, #275 ) ;
#233 = CC_DESIGN_PERSON_AND_ORGANIZATION_ASSIGNMENT ( #295, #209, ( #144 ) ) ;
#234 = APPROVAL_ROLE ( '' ) ;
#235 = AXIS2_PLACEMENT_3D ( 'NONE', #142, #193, #192 ) ;
#236 = PERSON_AND_ORGANIZATION ( #74, #252 ) ;
#237 = EDGE_LOOP ( 'NONE', ( #108 ) ) ;
#238 = DIRECTION ( 'NONE',  ( 1.000000000000000000, 0.000000000000000000, 0.000000000000000000 ) ) ;
#239 = CIRCLE ( 'NONE', #99, 6.000000000000000000 ) ;
#240 = FACE_OUTER_BOUND ( 'NONE', #15, .T. ) ;
#241 = EDGE_CURVE ( 'NONE', #290, #290, #296, .T. ) ;
#242 = DATE_AND_TIME ( #194, #206 ) ;
#243 = DIRECTION ( 'NONE',  ( 1.000000000000000000, 0.000000000000000000, 0.000000000000000000 ) ) ;
#244 = APPROVAL_ROLE ( '' ) ;
#245 = ORIENTED_EDGE ( 'NONE', *, *, #18, .F. ) ;
#246 = MANIFOLD_SOLID_BREP ( 'Boss-Extrude1', #278 ) ;
#247 = DATE_AND_TIME ( #273, #302 ) ;
#248 = DIRECTION ( 'NONE',  ( -1.000000000000000000, 0.000000000000000000, 0.000000000000000000 ) ) ;
#249 = CIRCLE ( 'NONE', #182, 3.000000000000000444 ) ;
#250 = FACE_OUTER_BOUND ( 'NONE', #210, .T. ) ;
#251 = FACE_OUTER_BOUND ( 'NONE', #87, .T. ) ;
#252 = ORGANIZATION ( 'UNSPECIFIED', 'UNSPECIFIED', '' ) ;
#253 = ADVANCED_FACE ( 'NONE', ( #279, #176 ), #282, .F. ) ;
#254 = DIRECTION ( 'NONE',  ( -0.000000000000000000, -0.000000000000000000, 1.000000000000000000 ) ) ;
#255 = CARTESIAN_POINT ( 'NONE',  ( 0.000000000000000000, 0.000000000000000000, 6.499999999999999112 ) ) ;
#256 = VERTEX_POINT ( 'NONE', #128 ) ;
#257 = ADVANCED_FACE ( 'NONE', ( #204, #78 ), #198, .F. ) ;
#258 = DATE_TIME_ROLE ( 'creation_date' ) ;
#259 = ORIENTED_EDGE ( 'NONE', *, *, #159, .F. ) ;
#260 = CARTESIAN_POINT ( 'NONE',  ( 6.000000000000000000, 0.000000000000000000, 6.499999999999999112 ) ) ;
#261 = EDGE_LOOP ( 'NONE', ( #95 ) ) ;
#262 = CARTESIAN_POINT ( 'NONE',  ( 0.000000000000000000, 11.00000000000000000, -6.500000000000000000 ) ) ;
#263 = CC_DESIGN_PERSON_AND_ORGANIZATION_ASSIGNMENT ( #41, #222, ( #72 ) ) ;
#264 = PERSON_AND_ORGANIZATION_ROLE ( 'design_supplier' ) ;
#265 = AXIS2_PLACEMENT_3D ( 'NONE', #178, #151, #148 ) ;
#266 = CARTESIAN_POINT ( 'NONE',  ( 22.50000000000000000, 0.000000000000000000, -6.500000000000000000 ) ) ;
#267 = COORDINATED_UNIVERSAL_TIME_OFFSET ( 2, 0, .AHEAD. ) ;
#268 = DIRECTION ( 'NONE',  ( -0.000000000000000000, -0.000000000000000000, 1.000000000000000000 ) ) ;
#269 = SHAPE_DEFINITION_REPRESENTATION ( #150, #208 ) ;
#270 = CC_DESIGN_DATE_AND_TIME_ASSIGNMENT ( #247, #166, ( #72 ) ) ;
#271 = EDGE_LOOP ( 'NONE', ( #35 ) ) ;
#272 = DIRECTION ( 'NONE',  ( 1.000000000000000000, 0.000000000000000000, 0.000000000000000000 ) ) ;
#273 = CALENDAR_DATE ( 2025, 14, 8 ) ;
#274 = DIRECTION ( 'NONE',  ( -0.000000000000000000, -0.000000000000000000, 1.000000000000000000 ) ) ;
#275 = APPROVAL ( #162, 'UNSPECIFIED' ) ;
#276 = CARTESIAN_POINT ( 'NONE',  ( 0.000000000000000000, 0.000000000000000000, -2.039192520832458388 ) ) ;
#277 = DIRECTION ( 'NONE',  ( 1.000000000000000000, 0.000000000000000000, 0.000000000000000000 ) ) ;
#278 = CLOSED_SHELL ( 'NONE', ( #257, #253, #229, #101, #281, #174, #138, #312, #48, #299, #318, #21 ) ) ;
#279 = FACE_OUTER_BOUND ( 'NONE', #237, .T. ) ;
#280 = DIRECTION ( 'NONE',  ( 1.000000000000000000, 0.000000000000000000, 0.000000000000000000 ) ) ;
#281 = ADVANCED_FACE ( 'NONE', ( #122, #227 ), #226, .F. ) ;
#282 = CYLINDRICAL_SURFACE ( 'NONE', #213, 6.000000000000000000 ) ;
#283 = LOCAL_TIME ( 12, 41, 21.00000000000000000, #153 ) ;
#284 = CC_DESIGN_APPROVAL ( #324, ( #326 ) ) ;
#285 = CARTESIAN_POINT ( 'NONE',  ( 0.000000000000000000, 0.000000000000000000, -3.000000000000000000 ) ) ;
#286 = CC_DESIGN_PERSON_AND_ORGANIZATION_ASSIGNMENT ( #62, #264, ( #326 ) ) ;
#287 = CARTESIAN_POINT ( 'NONE',  ( 3.000000000000000444, 0.000000000000000000, 3.000000000000000000 ) ) ;
#288 = ORIENTED_EDGE ( 'NONE', *, *, #18, .T. ) ;
#289 = CARTESIAN_POINT ( 'NONE',  ( 22.50000000000000000, 0.000000000000000000, -4.930715522979356003 ) ) ;
#290 = VERTEX_POINT ( 'NONE', #105 ) ;
#291 = CARTESIAN_POINT ( 'NONE',  ( 0.000000000000000000, 0.000000000000000000, -3.000000000000000000 ) ) ;
#292 = APPROVAL_ROLE ( '' ) ;
#293 = PRODUCT_DEFINITION ( 'UNKNOWN', '', #326, #304 ) ;
#294 = DIRECTION ( 'NONE',  ( 1.000000000000000000, 0.000000000000000000, -0.000000000000000000 ) ) ;
#295 = PERSON_AND_ORGANIZATION ( #74, #252 ) ;
#296 = CIRCLE ( 'NONE', #215, 6.000000000000000888 ) ;
#297 = CC_DESIGN_APPROVAL ( #147, ( #72 ) ) ;
#298 = CARTESIAN_POINT ( 'NONE',  ( 0.000000000000000000, 0.000000000000000000, -3.000000000000000000 ) ) ;
#299 = ADVANCED_FACE ( 'NONE', ( #22, #123 ), #47, .T. ) ;
#300 = EDGE_LOOP ( 'NONE', ( #81 ) ) ;
#301 = AXIS2_PLACEMENT_3D ( 'NONE', #100, #201, #75 ) ;
#302 = LOCAL_TIME ( 12, 41, 21.00000000000000000, #224 ) ;
#303 = DIRECTION ( 'NONE',  ( -0.000000000000000000, -0.000000000000000000, 1.000000000000000000 ) ) ;
#304 = DESIGN_CONTEXT ( 'detailed design', #216, 'design' ) ;
#305 = CARTESIAN_POINT ( 'NONE',  ( 0.000000000000000000, 0.000000000000000000, 4.930715522979356891 ) ) ;
#306 = CIRCLE ( 'NONE', #317, 22.50000000000000000 ) ;
#307 = CARTESIAN_POINT ( 'NONE',  ( 0.000000000000000000, 0.000000000000000000, 6.500000000000000000 ) ) ;
#308 = CC_DESIGN_DATE_AND_TIME_ASSIGNMENT ( #33, #258, ( #293 ) ) ;
#309 = CARTESIAN_POINT ( 'NONE',  ( 0.000000000000000000, 0.000000000000000000, 3.000000000000000000 ) ) ;
#310 = CYLINDRICAL_SURFACE ( 'NONE', #322, 22.50000000000000000 ) ;
#311 = CARTESIAN_POINT ( 'NONE',  ( 0.000000000000000000, 0.000000000000000000, 2.039192520832458388 ) ) ;
#312 = ADVANCED_FACE ( 'NONE', ( #30, #88 ), #82, .F. ) ;
#313 = VERTEX_POINT ( 'NONE', #260 ) ;
#314 = APPROVAL_STATUS ( 'not_yet_approved' ) ;
#315 = ORIENTED_EDGE ( 'NONE', *, *, #5, .F. ) ;
#316 = CARTESIAN_POINT ( 'NONE',  ( 0.000000000000000000, 0.000000000000000000, 0.000000000000000000 ) ) ;
#317 = AXIS2_PLACEMENT_3D ( 'NONE', #118, #171, #91 ) ;
#318 = ADVANCED_FACE ( 'NONE', ( #10, #186 ), #183, .F. ) ;
#319 = APPROVAL_DATE_TIME ( #109, #324 ) ;
#320 = PERSON_AND_ORGANIZATION_ROLE ( 'creator' ) ;
#321 = EDGE_LOOP ( 'NONE', ( #67 ) ) ;
#322 = AXIS2_PLACEMENT_3D ( 'NONE', #51, #103, #280 ) ;
#323 = FACE_OUTER_BOUND ( 'NONE', #139, .T. ) ;
#324 = APPROVAL ( #314, 'UNSPECIFIED' ) ;
#325 = EDGE_LOOP ( 'NONE', ( #60 ) ) ;
#326 = PRODUCT_DEFINITION_FORMATION_WITH_SPECIFIED_SOURCE ( 'ANY', '', #144, .NOT_KNOWN. ) ;
#327 = DIRECTION ( 'NONE',  ( 1.000000000000000000, 0.000000000000000000, 0.000000000000000000 ) ) ;
#328 = DIRECTION ( 'NONE',  ( 0.000000000000000000, 0.000000000000000000, 1.000000000000000000 ) ) ;
#329 = CC_DESIGN_PERSON_AND_ORGANIZATION_ASSIGNMENT ( #86, #187, ( #326 ) ) ;
ENDSEC;
END-ISO-10303-21;
